ISO-10303-21;
HEADER;
/* Generated by software containing ST-Developer
 * from STEP Tools, Inc. (www.steptools.com) 
 */

FILE_DESCRIPTION(
/* description */ (''),
/* implementation_level */ '2;1');

FILE_NAME(
/* name */ 
'Plumbing_Joints_Aignep_Flat-Gasket-For-Flange-90017-3DView-Preview',
/* time_stamp */ '2025-08-20T22:11:19+03:00',
/* author */ (''),
/* organization */ (''),
/* preprocessor_version */ 'ST-DEVELOPER v20',
/* originating_system */ '',
/* authorisation */ '');

FILE_SCHEMA (('AP242_MANAGED_MODEL_BASED_3D_ENGINEERING_MIM_LF { 1 0 10303 442 1 1 4 }'));
ENDSEC;

DATA;
#10=MECHANICAL_DESIGN_GEOMETRIC_PRESENTATION_REPRESENTATION('',(#49,#50,
#51,#52,#53,#54),#418);
#11=APPLIED_GROUP_ASSIGNMENT(#12,$);
#12=GROUP('Lines',$);
#13=ITEM_DEFINED_TRANSFORMATION($,$,#236,#260);
#14=ITEM_DEFINED_TRANSFORMATION($,$,#243,#261);
#15=ITEM_DEFINED_TRANSFORMATION($,$,#258,#262);
#16=ITEM_DEFINED_TRANSFORMATION($,$,#259,#263);
#17=(
REPRESENTATION_RELATIONSHIP($,$,#437,#436)
REPRESENTATION_RELATIONSHIP_WITH_TRANSFORMATION(#13)
SHAPE_REPRESENTATION_RELATIONSHIP()
);
#18=(
REPRESENTATION_RELATIONSHIP($,$,#438,#436)
REPRESENTATION_RELATIONSHIP_WITH_TRANSFORMATION(#14)
SHAPE_REPRESENTATION_RELATIONSHIP()
);
#19=(
REPRESENTATION_RELATIONSHIP($,$,#439,#436)
REPRESENTATION_RELATIONSHIP_WITH_TRANSFORMATION(#15)
SHAPE_REPRESENTATION_RELATIONSHIP()
);
#20=(
REPRESENTATION_RELATIONSHIP($,$,#440,#436)
REPRESENTATION_RELATIONSHIP_WITH_TRANSFORMATION(#16)
SHAPE_REPRESENTATION_RELATIONSHIP()
);
#21=CONTEXT_DEPENDENT_SHAPE_REPRESENTATION(#17,#432);
#22=CONTEXT_DEPENDENT_SHAPE_REPRESENTATION(#18,#433);
#23=CONTEXT_DEPENDENT_SHAPE_REPRESENTATION(#19,#434);
#24=CONTEXT_DEPENDENT_SHAPE_REPRESENTATION(#20,#435);
#25=NEXT_ASSEMBLY_USAGE_OCCURRENCE('Extrusion','Extrusion','Extrusion',
#442,#443,'Extrusion');
#26=NEXT_ASSEMBLY_USAGE_OCCURRENCE('Extrusion','Extrusion','Extrusion',
#442,#444,'Extrusion');
#27=NEXT_ASSEMBLY_USAGE_OCCURRENCE('Model Lines','Model Lines',
'Model Lines',#442,#445,'Model Lines');
#28=NEXT_ASSEMBLY_USAGE_OCCURRENCE('Model Lines','Model Lines',
'Model Lines',#442,#446,'Model Lines');
#29=GEOMETRICALLY_BOUNDED_SURFACE_SHAPE_REPRESENTATION('',(#31),#416);
#30=GEOMETRICALLY_BOUNDED_SURFACE_SHAPE_REPRESENTATION('',(#32),#417);
#31=GEOMETRIC_SET('GEOSET',(#33));
#32=GEOMETRIC_SET('GEOSET',(#34));
#33=TRIMMED_CURVE('',#105,(#397),(#398),.T.,.CARTESIAN.);
#34=TRIMMED_CURVE('',#106,(#401),(#402),.T.,.CARTESIAN.);
#35=CYLINDRICAL_SURFACE('',#254,44.5);
#36=CYLINDRICAL_SURFACE('',#255,44.5);
#37=CYLINDRICAL_SURFACE('',#256,65.5);
#38=CYLINDRICAL_SURFACE('',#257,65.5);
#39=FACE_BOUND('',#82,.T.);
#40=FACE_BOUND('',#84,.T.);
#41=CIRCLE('',#245,65.5);
#42=CIRCLE('',#246,65.5);
#43=CIRCLE('',#247,44.5);
#44=CIRCLE('',#248,44.5);
#45=CIRCLE('',#250,65.5);
#46=CIRCLE('',#251,65.5);
#47=CIRCLE('',#252,44.5);
#48=CIRCLE('',#253,44.5);
#49=STYLED_ITEM('',(#465),#227);
#50=STYLED_ITEM('',(#465),#228);
#51=STYLED_ITEM('',(#465),#229);
#52=STYLED_ITEM('',(#465),#230);
#53=STYLED_ITEM('',(#465),#231);
#54=STYLED_ITEM('',(#465),#232);
#55=SHAPE_REPRESENTATION_RELATIONSHIP('SRR','None',#437,#59);
#56=SHAPE_REPRESENTATION_RELATIONSHIP('SRR','None',#438,#60);
#57=SHAPE_REPRESENTATION_RELATIONSHIP('SRR','None',#439,#29);
#58=SHAPE_REPRESENTATION_RELATIONSHIP('SRR','None',#440,#30);
#59=ADVANCED_BREP_SHAPE_REPRESENTATION('',(#61),#414);
#60=ADVANCED_BREP_SHAPE_REPRESENTATION('',(#62),#415);
#61=MANIFOLD_SOLID_BREP('Extrusion',#233);
#62=MANIFOLD_SOLID_BREP('Extrusion',#234);
#63=FACE_OUTER_BOUND('',#75,.T.);
#64=FACE_OUTER_BOUND('',#76,.T.);
#65=FACE_OUTER_BOUND('',#77,.T.);
#66=FACE_OUTER_BOUND('',#78,.T.);
#67=FACE_OUTER_BOUND('',#79,.T.);
#68=FACE_OUTER_BOUND('',#80,.T.);
#69=FACE_OUTER_BOUND('',#81,.T.);
#70=FACE_OUTER_BOUND('',#83,.T.);
#71=FACE_OUTER_BOUND('',#85,.T.);
#72=FACE_OUTER_BOUND('',#86,.T.);
#73=FACE_OUTER_BOUND('',#87,.T.);
#74=FACE_OUTER_BOUND('',#88,.T.);
#75=EDGE_LOOP('',(#165,#166,#167,#168));
#76=EDGE_LOOP('',(#169,#170,#171,#172));
#77=EDGE_LOOP('',(#173,#174,#175,#176));
#78=EDGE_LOOP('',(#177,#178,#179,#180));
#79=EDGE_LOOP('',(#181,#182,#183,#184));
#80=EDGE_LOOP('',(#185,#186,#187,#188));
#81=EDGE_LOOP('',(#189,#190));
#82=EDGE_LOOP('',(#191,#192));
#83=EDGE_LOOP('',(#193,#194));
#84=EDGE_LOOP('',(#195,#196));
#85=EDGE_LOOP('',(#197,#198,#199,#200));
#86=EDGE_LOOP('',(#201,#202,#203,#204));
#87=EDGE_LOOP('',(#205,#206,#207,#208));
#88=EDGE_LOOP('',(#209,#210,#211,#212));
#89=LINE('',#345,#107);
#90=LINE('',#347,#108);
#91=LINE('',#349,#109);
#92=LINE('',#350,#110);
#93=LINE('',#354,#111);
#94=LINE('',#356,#112);
#95=LINE('',#358,#113);
#96=LINE('',#359,#114);
#97=LINE('',#361,#115);
#98=LINE('',#362,#116);
#99=LINE('',#364,#117);
#100=LINE('',#366,#118);
#101=LINE('',#388,#119);
#102=LINE('',#389,#120);
#103=LINE('',#392,#121);
#104=LINE('',#393,#122);
#105=LINE('',#396,#123);
#106=LINE('',#400,#124);
#107=VECTOR('',#270,304.8);
#108=VECTOR('',#271,304.8);
#109=VECTOR('',#272,304.8);
#110=VECTOR('',#273,304.8);
#111=VECTOR('',#276,304.8);
#112=VECTOR('',#277,304.8);
#113=VECTOR('',#278,304.8);
#114=VECTOR('',#279,304.8);
#115=VECTOR('',#282,304.8);
#116=VECTOR('',#283,304.8);
#117=VECTOR('',#286,304.8);
#118=VECTOR('',#289,304.8);
#119=VECTOR('',#316,304.8);
#120=VECTOR('',#317,304.8);
#121=VECTOR('',#322,304.8);
#122=VECTOR('',#323,304.8);
#123=VECTOR('',#328,304.8);
#124=VECTOR('',#331,304.8);
#125=VERTEX_POINT('',#343);
#126=VERTEX_POINT('',#344);
#127=VERTEX_POINT('',#346);
#128=VERTEX_POINT('',#348);
#129=VERTEX_POINT('',#352);
#130=VERTEX_POINT('',#353);
#131=VERTEX_POINT('',#355);
#132=VERTEX_POINT('',#357);
#133=VERTEX_POINT('',#370);
#134=VERTEX_POINT('',#371);
#135=VERTEX_POINT('',#374);
#136=VERTEX_POINT('',#375);
#137=VERTEX_POINT('',#379);
#138=VERTEX_POINT('',#380);
#139=VERTEX_POINT('',#383);
#140=VERTEX_POINT('',#384);
#141=EDGE_CURVE('',#125,#126,#89,.T.);
#142=EDGE_CURVE('',#126,#127,#90,.T.);
#143=EDGE_CURVE('',#127,#128,#91,.T.);
#144=EDGE_CURVE('',#128,#125,#92,.T.);
#145=EDGE_CURVE('',#129,#130,#93,.T.);
#146=EDGE_CURVE('',#130,#131,#94,.T.);
#147=EDGE_CURVE('',#131,#132,#95,.T.);
#148=EDGE_CURVE('',#132,#129,#96,.T.);
#149=EDGE_CURVE('',#125,#129,#97,.T.);
#150=EDGE_CURVE('',#132,#126,#98,.T.);
#151=EDGE_CURVE('',#131,#127,#99,.T.);
#152=EDGE_CURVE('',#130,#128,#100,.T.);
#153=EDGE_CURVE('',#133,#134,#41,.T.);
#154=EDGE_CURVE('',#134,#133,#42,.T.);
#155=EDGE_CURVE('',#135,#136,#43,.T.);
#156=EDGE_CURVE('',#136,#135,#44,.T.);
#157=EDGE_CURVE('',#137,#138,#45,.T.);
#158=EDGE_CURVE('',#138,#137,#46,.T.);
#159=EDGE_CURVE('',#139,#140,#47,.T.);
#160=EDGE_CURVE('',#140,#139,#48,.T.);
#161=EDGE_CURVE('',#135,#139,#101,.T.);
#162=EDGE_CURVE('',#140,#136,#102,.T.);
#163=EDGE_CURVE('',#133,#137,#103,.T.);
#164=EDGE_CURVE('',#138,#134,#104,.T.);
#165=ORIENTED_EDGE('',*,*,#141,.T.);
#166=ORIENTED_EDGE('',*,*,#142,.T.);
#167=ORIENTED_EDGE('',*,*,#143,.T.);
#168=ORIENTED_EDGE('',*,*,#144,.T.);
#169=ORIENTED_EDGE('',*,*,#145,.T.);
#170=ORIENTED_EDGE('',*,*,#146,.T.);
#171=ORIENTED_EDGE('',*,*,#147,.T.);
#172=ORIENTED_EDGE('',*,*,#148,.T.);
#173=ORIENTED_EDGE('',*,*,#141,.F.);
#174=ORIENTED_EDGE('',*,*,#149,.T.);
#175=ORIENTED_EDGE('',*,*,#148,.F.);
#176=ORIENTED_EDGE('',*,*,#150,.T.);
#177=ORIENTED_EDGE('',*,*,#142,.F.);
#178=ORIENTED_EDGE('',*,*,#150,.F.);
#179=ORIENTED_EDGE('',*,*,#147,.F.);
#180=ORIENTED_EDGE('',*,*,#151,.T.);
#181=ORIENTED_EDGE('',*,*,#143,.F.);
#182=ORIENTED_EDGE('',*,*,#151,.F.);
#183=ORIENTED_EDGE('',*,*,#146,.F.);
#184=ORIENTED_EDGE('',*,*,#152,.T.);
#185=ORIENTED_EDGE('',*,*,#144,.F.);
#186=ORIENTED_EDGE('',*,*,#152,.F.);
#187=ORIENTED_EDGE('',*,*,#145,.F.);
#188=ORIENTED_EDGE('',*,*,#149,.F.);
#189=ORIENTED_EDGE('',*,*,#153,.T.);
#190=ORIENTED_EDGE('',*,*,#154,.T.);
#191=ORIENTED_EDGE('',*,*,#155,.T.);
#192=ORIENTED_EDGE('',*,*,#156,.T.);
#193=ORIENTED_EDGE('',*,*,#157,.T.);
#194=ORIENTED_EDGE('',*,*,#158,.T.);
#195=ORIENTED_EDGE('',*,*,#159,.T.);
#196=ORIENTED_EDGE('',*,*,#160,.T.);
#197=ORIENTED_EDGE('',*,*,#155,.F.);
#198=ORIENTED_EDGE('',*,*,#161,.T.);
#199=ORIENTED_EDGE('',*,*,#160,.F.);
#200=ORIENTED_EDGE('',*,*,#162,.T.);
#201=ORIENTED_EDGE('',*,*,#156,.F.);
#202=ORIENTED_EDGE('',*,*,#162,.F.);
#203=ORIENTED_EDGE('',*,*,#159,.F.);
#204=ORIENTED_EDGE('',*,*,#161,.F.);
#205=ORIENTED_EDGE('',*,*,#153,.F.);
#206=ORIENTED_EDGE('',*,*,#163,.T.);
#207=ORIENTED_EDGE('',*,*,#158,.F.);
#208=ORIENTED_EDGE('',*,*,#164,.T.);
#209=ORIENTED_EDGE('',*,*,#154,.F.);
#210=ORIENTED_EDGE('',*,*,#164,.F.);
#211=ORIENTED_EDGE('',*,*,#157,.F.);
#212=ORIENTED_EDGE('',*,*,#163,.F.);
#213=PLANE('',#237);
#214=PLANE('',#238);
#215=PLANE('',#239);
#216=PLANE('',#240);
#217=PLANE('',#241);
#218=PLANE('',#242);
#219=PLANE('',#244);
#220=PLANE('',#249);
#221=ADVANCED_FACE('',(#63),#213,.T.);
#222=ADVANCED_FACE('',(#64),#214,.T.);
#223=ADVANCED_FACE('',(#65),#215,.T.);
#224=ADVANCED_FACE('',(#66),#216,.T.);
#225=ADVANCED_FACE('',(#67),#217,.T.);
#226=ADVANCED_FACE('',(#68),#218,.T.);
#227=ADVANCED_FACE('',(#69,#39),#219,.T.);
#228=ADVANCED_FACE('',(#70,#40),#220,.T.);
#229=ADVANCED_FACE('',(#71),#35,.F.);
#230=ADVANCED_FACE('',(#72),#36,.F.);
#231=ADVANCED_FACE('',(#73),#37,.T.);
#232=ADVANCED_FACE('',(#74),#38,.T.);
#233=CLOSED_SHELL('',(#221,#222,#223,#224,#225,#226));
#234=CLOSED_SHELL('',(#227,#228,#229,#230,#231,#232));
#235=AXIS2_PLACEMENT_3D('',#340,#264,#265);
#236=AXIS2_PLACEMENT_3D('',#341,#266,#267);
#237=AXIS2_PLACEMENT_3D('',#342,#268,#269);
#238=AXIS2_PLACEMENT_3D('',#351,#274,#275);
#239=AXIS2_PLACEMENT_3D('',#360,#280,#281);
#240=AXIS2_PLACEMENT_3D('',#363,#284,#285);
#241=AXIS2_PLACEMENT_3D('',#365,#287,#288);
#242=AXIS2_PLACEMENT_3D('',#367,#290,#291);
#243=AXIS2_PLACEMENT_3D('',#368,#292,#293);
#244=AXIS2_PLACEMENT_3D('',#369,#294,#295);
#245=AXIS2_PLACEMENT_3D('',#372,#296,#297);
#246=AXIS2_PLACEMENT_3D('',#373,#298,#299);
#247=AXIS2_PLACEMENT_3D('',#376,#300,#301);
#248=AXIS2_PLACEMENT_3D('',#377,#302,#303);
#249=AXIS2_PLACEMENT_3D('',#378,#304,#305);
#250=AXIS2_PLACEMENT_3D('',#381,#306,#307);
#251=AXIS2_PLACEMENT_3D('',#382,#308,#309);
#252=AXIS2_PLACEMENT_3D('',#385,#310,#311);
#253=AXIS2_PLACEMENT_3D('',#386,#312,#313);
#254=AXIS2_PLACEMENT_3D('',#387,#314,#315);
#255=AXIS2_PLACEMENT_3D('',#390,#318,#319);
#256=AXIS2_PLACEMENT_3D('',#391,#320,#321);
#257=AXIS2_PLACEMENT_3D('',#394,#324,#325);
#258=AXIS2_PLACEMENT_3D('',#395,#326,#327);
#259=AXIS2_PLACEMENT_3D('',#399,#329,#330);
#260=AXIS2_PLACEMENT_3D('',#403,#332,#333);
#261=AXIS2_PLACEMENT_3D('',#404,#334,#335);
#262=AXIS2_PLACEMENT_3D('',#405,#336,#337);
#263=AXIS2_PLACEMENT_3D('',#406,#338,#339);
#264=DIRECTION('axis',(0.,0.,1.));
#265=DIRECTION('refdir',(1.,0.,0.));
#266=DIRECTION('axis',(0.,0.,1.));
#267=DIRECTION('refdir',(1.,0.,0.));
#268=DIRECTION('center_axis',(0.,0.,1.));
#269=DIRECTION('ref_axis',(-1.,0.,0.));
#270=DIRECTION('',(-1.,0.,0.));
#271=DIRECTION('',(0.,-1.,0.));
#272=DIRECTION('',(1.,0.,0.));
#273=DIRECTION('',(0.,1.,0.));
#274=DIRECTION('center_axis',(0.,0.,-1.));
#275=DIRECTION('ref_axis',(1.,0.,0.));
#276=DIRECTION('',(0.,-1.,0.));
#277=DIRECTION('',(-1.,0.,0.));
#278=DIRECTION('',(0.,1.,0.));
#279=DIRECTION('',(1.,0.,0.));
#280=DIRECTION('center_axis',(0.,1.,0.));
#281=DIRECTION('ref_axis',(0.,0.,-1.));
#282=DIRECTION('',(0.,0.,-1.));
#283=DIRECTION('',(0.,0.,1.));
#284=DIRECTION('center_axis',(-1.,0.,0.));
#285=DIRECTION('ref_axis',(0.,0.,-1.));
#286=DIRECTION('',(0.,0.,1.));
#287=DIRECTION('center_axis',(0.,-1.,0.));
#288=DIRECTION('ref_axis',(0.,0.,-1.));
#289=DIRECTION('',(0.,0.,1.));
#290=DIRECTION('center_axis',(1.,0.,0.));
#291=DIRECTION('ref_axis',(0.,0.,-1.));
#292=DIRECTION('axis',(0.,0.,1.));
#293=DIRECTION('refdir',(1.,0.,0.));
#294=DIRECTION('center_axis',(0.,0.,1.));
#295=DIRECTION('ref_axis',(0.,-1.,0.));
#296=DIRECTION('center_axis',(0.,0.,1.));
#297=DIRECTION('ref_axis',(1.,0.,0.));
#298=DIRECTION('center_axis',(0.,0.,1.));
#299=DIRECTION('ref_axis',(1.,0.,0.));
#300=DIRECTION('center_axis',(0.,0.,-1.));
#301=DIRECTION('ref_axis',(1.,0.,0.));
#302=DIRECTION('center_axis',(0.,0.,-1.));
#303=DIRECTION('ref_axis',(1.,0.,0.));
#304=DIRECTION('center_axis',(0.,0.,-1.));
#305=DIRECTION('ref_axis',(0.,1.,0.));
#306=DIRECTION('center_axis',(0.,0.,-1.));
#307=DIRECTION('ref_axis',(1.,0.,0.));
#308=DIRECTION('center_axis',(0.,0.,-1.));
#309=DIRECTION('ref_axis',(1.,0.,0.));
#310=DIRECTION('center_axis',(0.,0.,1.));
#311=DIRECTION('ref_axis',(1.,0.,0.));
#312=DIRECTION('center_axis',(0.,0.,1.));
#313=DIRECTION('ref_axis',(1.,0.,0.));
#314=DIRECTION('center_axis',(0.,0.,-1.));
#315=DIRECTION('ref_axis',(1.,0.,0.));
#316=DIRECTION('',(0.,0.,-1.));
#317=DIRECTION('',(0.,0.,1.));
#318=DIRECTION('center_axis',(0.,0.,-1.));
#319=DIRECTION('ref_axis',(1.,0.,0.));
#320=DIRECTION('center_axis',(0.,0.,1.));
#321=DIRECTION('ref_axis',(1.,0.,0.));
#322=DIRECTION('',(0.,0.,-1.));
#323=DIRECTION('',(0.,0.,1.));
#324=DIRECTION('center_axis',(0.,0.,1.));
#325=DIRECTION('ref_axis',(1.,0.,0.));
#326=DIRECTION('axis',(0.,0.,1.));
#327=DIRECTION('refdir',(1.,0.,0.));
#328=DIRECTION('',(0.,-1.38279958230431E-14,1.));
#329=DIRECTION('axis',(0.,0.,1.));
#330=DIRECTION('refdir',(1.,0.,0.));
#331=DIRECTION('',(1.,0.,0.));
#332=DIRECTION('',(0.,0.,1.));
#333=DIRECTION('',(1.,0.,0.));
#334=DIRECTION('',(0.,0.,1.));
#335=DIRECTION('',(1.,0.,0.));
#336=DIRECTION('',(0.,0.,1.));
#337=DIRECTION('',(1.,0.,0.));
#338=DIRECTION('',(0.,0.,1.));
#339=DIRECTION('',(1.,0.,0.));
#340=CARTESIAN_POINT('',(0.,0.,0.));
#341=CARTESIAN_POINT('',(0.,0.,0.));
#342=CARTESIAN_POINT('Origin',(-824.856858974361,1219.19999999999,-1.89501747627219E-12));
#343=CARTESIAN_POINT('',(1219.20000000001,1219.19999999999,-1.89501747627219E-12));
#344=CARTESIAN_POINT('',(-1219.19999999999,1219.19999999999,-1.89501747627219E-12));
#345=CARTESIAN_POINT('',(1219.20000000001,1219.19999999999,-1.89501747627219E-12));
#346=CARTESIAN_POINT('',(-1219.19999999999,-1219.20000000001,-1.89501747627219E-12));
#347=CARTESIAN_POINT('',(-1219.19999999999,1219.19999999999,-1.89501747627219E-12));
#348=CARTESIAN_POINT('',(1219.20000000001,-1219.20000000001,-1.89501747627219E-12));
#349=CARTESIAN_POINT('',(-1219.19999999999,-1219.20000000001,-1.89501747627219E-12));
#350=CARTESIAN_POINT('',(1219.20000000001,-1219.20000000001,-1.89501747627219E-12));
#351=CARTESIAN_POINT('Origin',(-824.856858974361,1219.19999999999,-304.800000000002));
#352=CARTESIAN_POINT('',(1219.20000000001,1219.19999999999,-304.800000000002));
#353=CARTESIAN_POINT('',(1219.20000000001,-1219.20000000001,-304.800000000002));
#354=CARTESIAN_POINT('',(1219.20000000001,1219.19999999999,-304.800000000002));
#355=CARTESIAN_POINT('',(-1219.19999999999,-1219.20000000001,-304.800000000002));
#356=CARTESIAN_POINT('',(1219.20000000001,-1219.20000000001,-304.800000000002));
#357=CARTESIAN_POINT('',(-1219.19999999999,1219.19999999999,-304.800000000002));
#358=CARTESIAN_POINT('',(-1219.19999999999,-1219.20000000001,-304.800000000002));
#359=CARTESIAN_POINT('',(-1219.19999999999,1219.19999999999,-304.800000000002));
#360=CARTESIAN_POINT('Origin',(1219.20000000001,1219.19999999999,-1.89501747627219E-12));
#361=CARTESIAN_POINT('',(1219.20000000001,1219.19999999999,-1.89501747627219E-12));
#362=CARTESIAN_POINT('',(-1219.19999999999,1219.19999999999,-1.89501747627219E-12));
#363=CARTESIAN_POINT('Origin',(-1219.19999999999,1219.19999999999,-1.89501747627219E-12));
#364=CARTESIAN_POINT('',(-1219.19999999999,-1219.20000000001,-1.89501747627219E-12));
#365=CARTESIAN_POINT('Origin',(-1219.19999999999,-1219.20000000001,-1.89501747627219E-12));
#366=CARTESIAN_POINT('',(1219.20000000001,-1219.20000000001,-1.89501747627219E-12));
#367=CARTESIAN_POINT('Origin',(1219.20000000001,-1219.20000000001,-1.89501747627219E-12));
#368=CARTESIAN_POINT('',(0.,0.,0.));
#369=CARTESIAN_POINT('Origin',(44.5000000000187,-2.52737676415332E-11,1.9999999999981));
#370=CARTESIAN_POINT('',(-65.4999999999813,-2.50687546284452E-11,1.9999999999981));
#371=CARTESIAN_POINT('',(65.5000000000186,-2.53826980695361E-11,1.9999999999981));
#372=CARTESIAN_POINT('Origin',(1.86591498436482E-11,-2.52609990721991E-11,
1.9999999999981));
#373=CARTESIAN_POINT('Origin',(1.86591498436482E-11,-2.52609990721991E-11,
1.9999999999981));
#374=CARTESIAN_POINT('',(-44.4999999999813,-2.54043764620988E-11,1.9999999999981));
#375=CARTESIAN_POINT('',(44.5000000000187,-2.51910866433424E-11,1.9999999999981));
#376=CARTESIAN_POINT('Origin',(1.86696241248138E-11,-2.52737676415332E-11,
1.9999999999981));
#377=CARTESIAN_POINT('Origin',(1.86696241248138E-11,-2.52737676415332E-11,
1.9999999999981));
#378=CARTESIAN_POINT('Origin',(44.5000000000187,-2.52737676415332E-11,-1.86782324512424E-12));
#379=CARTESIAN_POINT('',(-65.4999999999813,-2.50687546284452E-11,-1.86782324512424E-12));
#380=CARTESIAN_POINT('',(65.5000000000186,-2.53826980695361E-11,-1.86782324512424E-12));
#381=CARTESIAN_POINT('Origin',(1.86591498436482E-11,-2.52609990721991E-11,
-1.86782324512424E-12));
#382=CARTESIAN_POINT('Origin',(1.86591498436482E-11,-2.52609990721991E-11,
-1.86782324512424E-12));
#383=CARTESIAN_POINT('',(-44.4999999999813,-2.54043764620988E-11,-1.86782324512424E-12));
#384=CARTESIAN_POINT('',(44.5000000000187,-2.51910866433424E-11,-1.86782324512424E-12));
#385=CARTESIAN_POINT('Origin',(1.86696241248138E-11,-2.52737676415332E-11,
-1.86782324512424E-12));
#386=CARTESIAN_POINT('Origin',(1.86696241248138E-11,-2.52737676415332E-11,
-1.86782324512424E-12));
#387=CARTESIAN_POINT('Origin',(1.86696241248138E-11,-2.52737676415332E-11,
-1.86782324512424E-12));
#388=CARTESIAN_POINT('',(-44.4999999999813,-2.53977891388194E-11,1.9999999999981));
#389=CARTESIAN_POINT('',(44.5000000000187,-2.52737676415332E-11,1.9999999999981));
#390=CARTESIAN_POINT('Origin',(1.86696241248138E-11,-2.52737676415332E-11,
-1.86782324512424E-12));
#391=CARTESIAN_POINT('Origin',(1.86591498436482E-11,-2.52609990721991E-11,
-1.86782324512424E-12));
#392=CARTESIAN_POINT('',(-65.4999999999813,-2.50784505761936E-11,1.9999999999981));
#393=CARTESIAN_POINT('',(65.5000000000187,-2.52609990721991E-11,1.9999999999981));
#394=CARTESIAN_POINT('Origin',(1.86591498436482E-11,-2.52609990721991E-11,
-1.86782324512424E-12));
#395=CARTESIAN_POINT('',(0.,0.,0.));
#396=CARTESIAN_POINT('',(6.26381199513026E-12,-8.42954625372702E-12,-1.87069526536021E-12));
#397=CARTESIAN_POINT('',(6.26381199513026E-12,-8.42954625372702E-12,-1.87069526536021E-12));
#398=CARTESIAN_POINT('',(6.26381199513026E-12,-8.45720224537314E-12,2.00000000000043));
#399=CARTESIAN_POINT('',(0.,0.,0.));
#400=CARTESIAN_POINT('',(-31.9999999999937,-8.44337424954985E-12,0.999999999982197));
#401=CARTESIAN_POINT('',(-31.9999999999937,-8.44337424954985E-12,0.999999999982197));
#402=CARTESIAN_POINT('',(32.0000000000063,-8.44337424954985E-12,0.999999999982197));
#403=CARTESIAN_POINT('',(0.,0.,0.));
#404=CARTESIAN_POINT('',(0.,0.,0.));
#405=CARTESIAN_POINT('',(0.,0.,0.));
#406=CARTESIAN_POINT('',(0.,0.,0.));
#407=UNCERTAINTY_MEASURE_WITH_UNIT(LENGTH_MEASURE(0.01),#419,
'DISTANCE_ACCURACY_VALUE',
'Maximum model space distance between geometric entities at asserted c
onnectivities');
#408=UNCERTAINTY_MEASURE_WITH_UNIT(LENGTH_MEASURE(0.01),#419,
'DISTANCE_ACCURACY_VALUE',
'Maximum model space distance between geometric entities at asserted c
onnectivities');
#409=UNCERTAINTY_MEASURE_WITH_UNIT(LENGTH_MEASURE(0.01),#419,
'DISTANCE_ACCURACY_VALUE',
'Maximum model space distance between geometric entities at asserted c
onnectivities');
#410=UNCERTAINTY_MEASURE_WITH_UNIT(LENGTH_MEASURE(0.01),#419,
'DISTANCE_ACCURACY_VALUE',
'Maximum model space distance between geometric entities at asserted c
onnectivities');
#411=UNCERTAINTY_MEASURE_WITH_UNIT(LENGTH_MEASURE(0.01),#419,
'DISTANCE_ACCURACY_VALUE',
'Maximum model space distance between geometric entities at asserted c
onnectivities');
#412=UNCERTAINTY_MEASURE_WITH_UNIT(LENGTH_MEASURE(0.01),#419,
'DISTANCE_ACCURACY_VALUE',
'Maximum model space distance between geometric entities at asserted c
onnectivities');
#413=(
GEOMETRIC_REPRESENTATION_CONTEXT(3)
GLOBAL_UNCERTAINTY_ASSIGNED_CONTEXT((#407))
GLOBAL_UNIT_ASSIGNED_CONTEXT((#419,#420,#421))
REPRESENTATION_CONTEXT('','3D')
);
#414=(
GEOMETRIC_REPRESENTATION_CONTEXT(3)
GLOBAL_UNCERTAINTY_ASSIGNED_CONTEXT((#408))
GLOBAL_UNIT_ASSIGNED_CONTEXT((#419,#420,#421))
REPRESENTATION_CONTEXT('','3D')
);
#415=(
GEOMETRIC_REPRESENTATION_CONTEXT(3)
GLOBAL_UNCERTAINTY_ASSIGNED_CONTEXT((#409))
GLOBAL_UNIT_ASSIGNED_CONTEXT((#419,#420,#421))
REPRESENTATION_CONTEXT('','3D')
);
#416=(
GEOMETRIC_REPRESENTATION_CONTEXT(3)
GLOBAL_UNCERTAINTY_ASSIGNED_CONTEXT((#410))
GLOBAL_UNIT_ASSIGNED_CONTEXT((#419,#420,#421))
REPRESENTATION_CONTEXT('','3D')
);
#417=(
GEOMETRIC_REPRESENTATION_CONTEXT(3)
GLOBAL_UNCERTAINTY_ASSIGNED_CONTEXT((#411))
GLOBAL_UNIT_ASSIGNED_CONTEXT((#419,#420,#421))
REPRESENTATION_CONTEXT('','3D')
);
#418=(
GEOMETRIC_REPRESENTATION_CONTEXT(3)
GLOBAL_UNCERTAINTY_ASSIGNED_CONTEXT((#412))
GLOBAL_UNIT_ASSIGNED_CONTEXT((#419,#420,#421))
REPRESENTATION_CONTEXT('','3D')
);
#419=(
LENGTH_UNIT()
NAMED_UNIT(*)
SI_UNIT(.MILLI.,.METRE.)
);
#420=(
NAMED_UNIT(*)
PLANE_ANGLE_UNIT()
SI_UNIT($,.RADIAN.)
);
#421=(
NAMED_UNIT(*)
SI_UNIT($,.STERADIAN.)
SOLID_ANGLE_UNIT()
);
#422=SHAPE_DEFINITION_REPRESENTATION(#427,#436);
#423=SHAPE_DEFINITION_REPRESENTATION(#428,#437);
#424=SHAPE_DEFINITION_REPRESENTATION(#429,#438);
#425=SHAPE_DEFINITION_REPRESENTATION(#430,#439);
#426=SHAPE_DEFINITION_REPRESENTATION(#431,#440);
#427=PRODUCT_DEFINITION_SHAPE('',$,#442);
#428=PRODUCT_DEFINITION_SHAPE('',$,#443);
#429=PRODUCT_DEFINITION_SHAPE('',$,#444);
#430=PRODUCT_DEFINITION_SHAPE('',$,#445);
#431=PRODUCT_DEFINITION_SHAPE('',$,#446);
#432=PRODUCT_DEFINITION_SHAPE($,$,#25);
#433=PRODUCT_DEFINITION_SHAPE($,$,#26);
#434=PRODUCT_DEFINITION_SHAPE($,$,#27);
#435=PRODUCT_DEFINITION_SHAPE($,$,#28);
#436=SHAPE_REPRESENTATION('',(#235,#260,#261,#262,#263),#413);
#437=SHAPE_REPRESENTATION('',(#236),#414);
#438=SHAPE_REPRESENTATION('',(#243),#415);
#439=SHAPE_REPRESENTATION('',(#258),#416);
#440=SHAPE_REPRESENTATION('',(#259),#417);
#441=PRODUCT_DEFINITION_CONTEXT('part definition',#458,'design');
#442=PRODUCT_DEFINITION('TopLevelAssembly','TopLevelAssembly',#447,#441);
#443=PRODUCT_DEFINITION('Extrusion','Extrusion',#448,#441);
#444=PRODUCT_DEFINITION('Extrusion_1','Extrusion',#449,#441);
#445=PRODUCT_DEFINITION('Model Lines','Model Lines',#450,#441);
#446=PRODUCT_DEFINITION('Model Lines_1','Model Lines',#451,#441);
#447=PRODUCT_DEFINITION_FORMATION('',$,#460);
#448=PRODUCT_DEFINITION_FORMATION('',$,#461);
#449=PRODUCT_DEFINITION_FORMATION('',$,#462);
#450=PRODUCT_DEFINITION_FORMATION('',$,#463);
#451=PRODUCT_DEFINITION_FORMATION('',$,#464);
#452=PRODUCT_RELATED_PRODUCT_CATEGORY('TopLevelAssembly',
'TopLevelAssembly',(#460));
#453=PRODUCT_RELATED_PRODUCT_CATEGORY('Extrusion','Extrusion',(#461));
#454=PRODUCT_RELATED_PRODUCT_CATEGORY('Extrusion','Extrusion',(#462));
#455=PRODUCT_RELATED_PRODUCT_CATEGORY('Model Lines','Model Lines',(#463));
#456=PRODUCT_RELATED_PRODUCT_CATEGORY('Model Lines','Model Lines',(#464));
#457=APPLICATION_PROTOCOL_DEFINITION('international standard',
'ap242_managed_model_based_3d_engineering',2011,#458);
#458=APPLICATION_CONTEXT('Managed model based 3d engineering');
#459=PRODUCT_CONTEXT('part definition',#458,'mechanical');
#460=PRODUCT('TopLevelAssembly','TopLevelAssembly',$,(#459));
#461=PRODUCT('Extrusion','Extrusion',$,(#459));
#462=PRODUCT('Extrusion_1','Extrusion',$,(#459));
#463=PRODUCT('Model Lines','Model Lines',$,(#459));
#464=PRODUCT('Model Lines_1','Model Lines',$,(#459));
#465=PRESENTATION_STYLE_ASSIGNMENT((#466));
#466=SURFACE_STYLE_USAGE(.BOTH.,#469);
#467=SURFACE_STYLE_RENDERING_WITH_PROPERTIES($,#473,(#468));
#468=SURFACE_STYLE_TRANSPARENT(0.);
#469=SURFACE_SIDE_STYLE('',(#470,#467));
#470=SURFACE_STYLE_FILL_AREA(#471);
#471=FILL_AREA_STYLE('AIGNEP - Rubber - Black',(#472));
#472=FILL_AREA_STYLE_COLOUR('AIGNEP - Rubber - Black',#473);
#473=COLOUR_RGB('AIGNEP - Rubber - Black',0.247058823529412,0.247058823529412,
0.247058823529412);
ENDSEC;
END-ISO-10303-21;
